  0
SECTION
  2
HEADER
  9
$ACADVER
  1
AC1009
  9
$INSBASE
 10
49.79910470255022
 20
-45.37369329744977
 30
0.0
  9
$EXTMIN
 10
49.51080104850084
 20
-45.66199695149915
 30
0.0
  9
$EXTMAX
 10
276.4195809529663
 20
158.5988859529663
 30
0.0
  9
$LIMMIN
 10
0.0
 20
0.0
  9
$LIMMAX
 10
12.0
 20
9.0
  9
$ORTHOMODE
 70
     0
  9
$REGENMODE
 70
     1
  9
$FILLMODE
 70
     1
  9
$QTEXTMODE
 70
     0
  9
$MIRRTEXT
 70
     1
  9
$DRAGMODE
 70
     2
  9
$LTSCALE
 40
1.0
  9
$OSMODE
 70
     0
  9
$ATTMODE
 70
     1
  9
$TEXTSIZE
 40
0.2
  9
$TRACEWID
 40
0.05
  9
$TEXTSTYLE
  7
STANDARD
  9
$CLAYER
  8
0
  9
$CELTYPE
  6
BYLAYER
  9
$CECOLOR
 62
   256
  9
$DIMSCALE
 40
1.0
  9
$DIMASZ
 40
0.18
  9
$DIMEXO
 40
0.0625
  9
$DIMDLI
 40
0.38
  9
$DIMRND
 40
0.0
  9
$DIMDLE
 40
0.0
  9
$DIMEXE
 40
0.18
  9
$DIMTP
 40
0.0
  9
$DIMTM
 40
0.0
  9
$DIMTXT
 40
0.18
  9
$DIMCEN
 40
0.09
  9
$DIMTSZ
 40
0.0
  9
$DIMTOL
 70
     0
  9
$DIMLIM
 70
     0
  9
$DIMTIH
 70
     1
  9
$DIMTOH
 70
     1
  9
$DIMSE1
 70
     0
  9
$DIMSE2
 70
     0
  9
$DIMTAD
 70
     0
  9
$DIMZIN
 70
     0
  9
$DIMBLK
  1

  9
$DIMASO
 70
     1
  9
$DIMSHO
 70
     0
  9
$DIMPOST
  1

  9
$DIMAPOST
  1

  9
$DIMALT
 70
     0
  9
$DIMALTD
 70
     2
  9
$DIMALTF
 40
25.39999999999999
  9
$DIMLFAC
 40
1.0
  9
$DIMTOFL
 70
     0
  9
$DIMTVP
 40
0.0
  9
$DIMTIX
 70
     0
  9
$DIMSOXD
 70
     0
  9
$DIMSAH
 70
     0
  9
$DIMBLK1
  1

  9
$DIMBLK2
  1

  9
$DIMSTYLE
  2
*UNNAMED
  9
$DIMCLRD
 70
     0
  9
$DIMCLRE
 70
     0
  9
$DIMCLRT
 70
     0
  9
$DIMTFAC
 40
1.0
  9
$DIMGAP
 40
0.09
  9
$LUNITS
 70
     2
  9
$LUPREC
 70
     4
  9
$SKETCHINC
 40
0.1
  9
$FILLETRAD
 40
0.0
  9
$AUNITS
 70
     0
  9
$AUPREC
 70
     0
  9
$MENU
  1
acad
  9
$ELEVATION
 40
0.0
  9
$PELEVATION
 40
0.0
  9
$THICKNESS
 40
0.0
  9
$LIMCHECK
 70
     0
  9
$BLIPMODE
 70
     1
  9
$CHAMFERA
 40
0.0
  9
$CHAMFERB
 40
0.0
  9
$SKPOLY
 70
     0
  9
$TDCREATE
 40
2449258.574888657
  9
$TDUPDATE
 40
2449394.635522916
  9
$TDINDWG
 40
0.0005245370
  9
$TDUSRTIMER
 40
0.0005245370
  9
$USRTIMER
 70
     1
  9
$ANGBASE
 50
0.0
  9
$ANGDIR
 70
     0
  9
$PDMODE
 70
     3
  9
$PDSIZE
 40
0.0
  9
$PLINEWID
 40
0.0
  9
$COORDS
 70
     0
  9
$SPLFRAME
 70
     0
  9
$SPLINETYPE
 70
     6
  9
$SPLINESEGS
 70
     8
  9
$ATTDIA
 70
     0
  9
$ATTREQ
 70
     1
  9
$HANDLING
 70
     0
  9
$HANDSEED
  5
0
  9
$SURFTAB1
 70
     6
  9
$SURFTAB2
 70
     6
  9
$SURFTYPE
 70
     6
  9
$SURFU
 70
     6
  9
$SURFV
 70
     6
  9
$UCSNAME
  2

  9
$UCSORG
 10
0.0
 20
0.0
 30
0.0
  9
$UCSXDIR
 10
1.0
 20
0.0
 30
0.0
  9
$UCSYDIR
 10
0.0
 20
1.0
 30
0.0
  9
$PUCSNAME
  2

  9
$PUCSORG
 10
0.0
 20
0.0
 30
0.0
  9
$PUCSXDIR
 10
1.0
 20
0.0
 30
0.0
  9
$PUCSYDIR
 10
0.0
 20
1.0
 30
0.0
  9
$USERI1
 70
     0
  9
$USERI2
 70
     0
  9
$USERI3
 70
     0
  9
$USERI4
 70
     0
  9
$USERI5
 70
     0
  9
$USERR1
 40
0.0
  9
$USERR2
 40
0.0
  9
$USERR3
 40
0.0
  9
$USERR4
 40
0.0
  9
$USERR5
 40
0.0
  9
$WORLDVIEW
 70
     1
  9
$SHADEDGE
 70
     3
  9
$SHADEDIF
 70
    70
  9
$TILEMODE
 70
     1
  9
$MAXACTVP
 70
    16
  9
$PINSBASE
 10
0.0
 20
0.0
 30
0.0
  9
$PLIMCHECK
 70
     0
  9
$PEXTMIN
 10
1.000000000000000E+20
 20
1.000000000000000E+20
 30
1.000000000000000E+20
  9
$PEXTMAX
 10
-1.000000000000000E+20
 20
-1.000000000000000E+20
 30
-1.000000000000000E+20
  9
$PLIMMIN
 10
0.0
 20
0.0
  9
$PLIMMAX
 10
12.0
 20
9.0
  9
$UNITMODE
 70
     0
  9
$VISRETAIN
 70
     0
  9
$PLINEGEN
 70
     0
  9
$PSLTSCALE
 70
     0
  9
$TREEDEPTH
 70
  3020
  9
$DWGCODEPAGE
  3
undefined
  0
ENDSEC
  0
SECTION
  2
TABLES
  0
TABLE
  2
VPORT
 70
     2
  0
VPORT
  2
*ACTIVE
 70
     0
 10
0.0
 20
0.0
 11
1.0
 21
1.0
 12
190.2564630717535
 22
64.7305918648494
 13
0.0
 23
0.0
 14
1.0
 24
1.0
 15
0.0
 25
0.0
 16
0.0
 26
0.0
 36
1.0
 17
0.0
 27
0.0
 37
0.0
 40
220.2085703245983
 41
1.275675675675675
 42
50.0
 43
0.0
 44
0.0
 50
0.0
 51
0.0
 71
     0
 72
   100
 73
     1
 74
     1
 75
     0
 76
     0
 77
     0
 78
     0
  0
ENDTAB
  0
TABLE
  2
LTYPE
 70
     3
  0
LTYPE
  2
CONTINUOUS
 70
    64
  3
Ausgezogene Linie
 72
    65
 73
     0
 40
0.0
  0
LTYPE
  2
ITEM-STRICH
 70
     0
  3
- - - - -
 72
    65
 73
     2
 40
1.5
 49
1.2
 49
-0.3
  0
LTYPE
  2
ITEM-STRICHGR
 70
    64
  3
-- -- -- -- -- 
 72
    65
 73
     2
 40
6.25
 49
5.0
 49
-1.25
  0
ENDTAB
  0
TABLE
  2
LAYER
 70
     4
  0
LAYER
  2
0
 70
     0
 62
     7
  6
CONTINUOUS
  0
LAYER
  2
ITEM_GSTRG
 70
    64
 62
     6
  6
ITEM-STRICHGR
  0
LAYER
  2
ITEM_50
 70
    64
 62
     7
  6
CONTINUOUS
  0
LAYER
  2
ITEM_HILFE
 70
    64
 62
     3
  6
CONTINUOUS
  0
ENDTAB
  0
TABLE
  2
STYLE
 70
     1
  0
STYLE
  2
STANDARD
 70
     0
 40
0.0
 41
1.0
 50
0.0
 71
     0
 42
0.2
  3
txt
  4

  0
ENDTAB
  0
TABLE
  2
VIEW
 70
     0
  0
ENDTAB
  0
TABLE
  2
UCS
 70
     0
  0
ENDTAB
  0
TABLE
  2
APPID
 70
     1
  0
APPID
  2
ACAD
 70
    64
  0
ENDTAB
  0
TABLE
  2
DIMSTYLE
 70
     0
  0
ENDTAB
  0
ENDSEC
  0
SECTION
  2
BLOCKS
  0
ENDSEC
  0
SECTION
  2
ENTITIES
  0
LINE
  8
ITEM_GSTRG
 10
157.4038879999999
 20
145.081119
 30
0.0
 11
157.4038879999999
 21
154.081119
 31
0.0
  0
LINE
  8
ITEM_GSTRG
 10
149.4038879999999
 20
154.081119
 30
0.0
 11
149.4038879999999
 21
145.081119
 31
0.0
  0
LINE
  8
ITEM_GSTRG
 10
160.4038879999999
 20
154.081119
 30
0.0
 11
160.4038879999999
 21
145.081119
 31
0.0
  0
LINE
  8
ITEM_GSTRG
 10
160.4038879999999
 20
145.081119
 30
0.0
 11
146.4038879999999
 21
145.081119
 31
0.0
  0
LINE
  8
ITEM_GSTRG
 10
146.4038879999999
 20
145.081119
 30
0.0
 11
146.4038879999999
 21
154.081119
 31
0.0
  0
LINE
  8
ITEM_GSTRG
 10
262.901814
 20
54.23109
 30
0.0
 11
271.901814
 21
54.23109
 31
0.0
  0
LINE
  8
ITEM_GSTRG
 10
271.901814
 20
62.23109
 30
0.0
 11
262.901814
 21
62.23109
 31
0.0
  0
LINE
  8
ITEM_GSTRG
 10
271.901814
 20
51.23109
 30
0.0
 11
262.901814
 21
51.23109
 31
0.0
  0
LINE
  8
ITEM_GSTRG
 10
262.901814
 20
51.23109
 30
0.0
 11
262.901814
 21
65.23109
 31
0.0
  0
LINE
  8
ITEM_GSTRG
 10
262.901814
 20
65.23109
 30
0.0
 11
271.901814
 21
65.23109
 31
0.0
  0
LINE
  8
ITEM_50
 10
213.4038879999999
 20
-37.76890999999999
 30
0.0
 11
213.4038879999999
 21
114.2310899999999
 31
0.0
  0
LINE
  8
ITEM_50
 10
57.403888
 20
-41.76890999999999
 30
0.0
 11
209.4038879999999
 21
-41.76890999999999
 31
0.0
  0
LINE
  8
ITEM_50
 10
57.403888
 20
-41.76890999999999
 30
0.0
 11
209.4038879999999
 21
-41.76890999999999
 31
0.0
  0
POINT
  8
ITEM_HILFE
 10
133.4038879999999
 20
38.23109
 30
0.0
  0
POINT
  8
ITEM_HILFE
 10
53.403888
 20
-41.76890999999999
 30
0.0
  0
POINT
  8
ITEM_HILFE
 10
53.403888
 20
154.081119
 30
0.0
  0
POINT
  8
ITEM_HILFE
 10
271.901814
 20
-41.76890999999999
 30
0.0
  0
LINE
  8
ITEM_50
 10
271.901814
 20
118.2310899999999
 30
0.0
 11
273.401814
 21
118.2310899999999
 31
0.0
  0
LINE
  8
ITEM_50
 10
275.901814
 20
115.7310899999999
 30
0.0
 11
275.901814
 21
-39.26890999999999
 31
0.0
  0
LINE
  8
ITEM_50
 10
273.401814
 20
-41.76890999999999
 30
0.0
 11
271.901814
 21
-41.76890999999999
 31
0.0
  0
ARC
  8
ITEM_50
 10
273.401814
 20
115.7310899999999
 30
0.0
 40
2.5
 50
0.0
 51
90.0
  0
ARC
  8
ITEM_50
 10
273.401814
 20
-39.26890999999999
 30
0.0
 40
2.5
 50
270.0
 51
0.0
  0
LINE
  8
ITEM_50
 10
271.901814
 20
-41.76890999999999
 30
0.0
 11
271.901814
 21
118.2310899999999
 31
0.0
  0
LINE
  8
ITEM_GSTRG
 10
271.901814
 20
115.6310899999999
 30
0.0
 11
262.901814
 21
115.6310899999999
 31
0.0
  0
LINE
  8
ITEM_GSTRG
 10
262.901814
 20
115.6310899999999
 30
0.0
 11
262.901814
 21
111.6310899999999
 31
0.0
  0
LINE
  8
ITEM_GSTRG
 10
262.901814
 20
111.6310899999999
 30
0.0
 11
271.901814
 21
111.6310899999999
 31
0.0
  0
LINE
  8
ITEM_GSTRG
 10
262.901814
 20
113.6310899999999
 30
0.0
 11
271.901814
 21
113.6310899999999
 31
0.0
  0
LINE
  8
ITEM_GSTRG
 10
262.901814
 20
-37.26890999999999
 30
0.0
 11
271.901814
 21
-37.26890999999999
 31
0.0
  0
LINE
  8
ITEM_GSTRG
 10
262.901814
 20
-35.26890999999999
 30
0.0
 11
271.901814
 21
-35.26890999999999
 31
0.0
  0
LINE
  8
ITEM_GSTRG
 10
262.901814
 20
-39.26890999999999
 30
0.0
 11
262.901814
 21
-35.26890999999999
 31
0.0
  0
LINE
  8
ITEM_GSTRG
 10
271.901814
 20
-39.26890999999999
 30
0.0
 11
262.901814
 21
-39.26890999999999
 31
0.0
  0
LINE
  8
ITEM_GSTRG
 10
262.901814
 20
105.2310899999999
 30
0.0
 11
271.901814
 21
105.2310899999999
 31
0.0
  0
LINE
  8
ITEM_GSTRG
 10
262.901814
 20
91.23109
 30
0.0
 11
262.901814
 21
105.2310899999999
 31
0.0
  0
LINE
  8
ITEM_GSTRG
 10
271.901814
 20
91.23109
 30
0.0
 11
262.901814
 21
91.23109
 31
0.0
  0
LINE
  8
ITEM_GSTRG
 10
271.901814
 20
102.23109
 30
0.0
 11
262.901814
 21
102.23109
 31
0.0
  0
LINE
  8
ITEM_GSTRG
 10
262.901814
 20
94.23109
 30
0.0
 11
271.901814
 21
94.23109
 31
0.0
  0
LINE
  8
ITEM_GSTRG
 10
58.003888
 20
145.081119
 30
0.0
 11
58.003888
 21
154.081119
 31
0.0
  0
LINE
  8
ITEM_GSTRG
 10
208.803888
 20
145.081119
 30
0.0
 11
208.803888
 21
154.081119
 31
0.0
  0
CIRCLE
  8
ITEM_50
 10
206.9038869999999
 20
-35.26890999999999
 30
0.0
 40
2.1
  0
CIRCLE
  8
ITEM_50
 10
206.9038869999999
 20
111.7310899999999
 30
0.0
 40
2.1
  0
CIRCLE
  8
ITEM_50
 10
59.903888
 20
-35.26890999999999
 30
0.0
 40
2.1
  0
CIRCLE
  8
ITEM_50
 10
59.903888
 20
111.7310899999999
 30
0.0
 40
2.1
  0
LINE
  8
ITEM_GSTRG
 10
80.40388799999999
 20
145.081119
 30
0.0
 11
80.40388799999999
 21
154.081119
 31
0.0
  0
LINE
  8
ITEM_GSTRG
 10
66.40388799999999
 20
145.081119
 30
0.0
 11
80.40388799999999
 21
145.081119
 31
0.0
  0
LINE
  8
ITEM_GSTRG
 10
66.40388799999999
 20
154.081119
 30
0.0
 11
66.40388799999999
 21
145.081119
 31
0.0
  0
LINE
  8
ITEM_GSTRG
 10
120.4038879999999
 20
145.081119
 30
0.0
 11
120.4038879999999
 21
154.081119
 31
0.0
  0
LINE
  8
ITEM_GSTRG
 10
106.4038879999999
 20
145.081119
 30
0.0
 11
120.4038879999999
 21
145.081119
 31
0.0
  0
LINE
  8
ITEM_GSTRG
 10
106.4038879999999
 20
154.081119
 30
0.0
 11
106.4038879999999
 21
145.081119
 31
0.0
  0
LINE
  8
ITEM_GSTRG
 10
117.4038879999999
 20
154.081119
 30
0.0
 11
117.4038879999999
 21
145.081119
 31
0.0
  0
LINE
  8
ITEM_GSTRG
 10
109.4038879999999
 20
145.081119
 30
0.0
 11
109.4038879999999
 21
154.081119
 31
0.0
  0
LINE
  8
ITEM_50
 10
134.444878
 20
158.081119
 30
0.0
 11
210.9038879999999
 21
158.081119
 31
0.0
  0
LINE
  8
ITEM_50
 10
55.903888
 20
158.081119
 30
0.0
 11
134.444878
 21
158.081119
 31
0.0
  0
LINE
  8
ITEM_GSTRG
 10
206.803888
 20
145.081119
 30
0.0
 11
210.803888
 21
145.081119
 31
0.0
  0
LINE
  8
ITEM_GSTRG
 10
206.803888
 20
154.081119
 30
0.0
 11
206.803888
 21
145.081119
 31
0.0
  0
LINE
  8
ITEM_GSTRG
 10
210.803888
 20
145.081119
 30
0.0
 11
210.803888
 21
154.081119
 31
0.0
  0
LINE
  8
ITEM_GSTRG
 10
60.003888
 20
145.081119
 30
0.0
 11
60.003888
 21
154.081119
 31
0.0
  0
LINE
  8
ITEM_GSTRG
 10
56.003888
 20
145.081119
 30
0.0
 11
60.003888
 21
145.081119
 31
0.0
  0
LINE
  8
ITEM_GSTRG
 10
56.003888
 20
154.081119
 30
0.0
 11
56.003888
 21
145.081119
 31
0.0
  0
LINE
  8
ITEM_GSTRG
 10
186.4038879999999
 20
145.081119
 30
0.0
 11
200.4038879999999
 21
145.081119
 31
0.0
  0
LINE
  8
ITEM_GSTRG
 10
77.40388799999999
 20
154.081119
 30
0.0
 11
77.40388799999999
 21
145.081119
 31
0.0
  0
LINE
  8
ITEM_GSTRG
 10
69.40388799999999
 20
145.081119
 30
0.0
 11
69.40388799999999
 21
154.081119
 31
0.0
  0
LINE
  8
ITEM_GSTRG
 10
189.4038879999999
 20
145.081119
 30
0.0
 11
189.4038879999999
 21
154.081119
 31
0.0
  0
LINE
  8
ITEM_GSTRG
 10
197.4038879999999
 20
154.081119
 30
0.0
 11
197.4038879999999
 21
145.081119
 31
0.0
  0
LINE
  8
ITEM_GSTRG
 10
200.4038879999999
 20
145.081119
 30
0.0
 11
200.4038879999999
 21
154.081119
 31
0.0
  0
LINE
  8
ITEM_GSTRG
 10
186.4038879999999
 20
154.081119
 30
0.0
 11
186.4038879999999
 21
145.081119
 31
0.0
  0
LINE
  8
ITEM_50
 10
213.4038879999999
 20
154.081119
 30
0.0
 11
53.403888
 21
154.081119
 31
0.0
  0
CIRCLE
  8
ITEM_50
 10
206.9038869999999
 20
-35.26890999999999
 30
0.0
 40
4.15
  0
CIRCLE
  8
ITEM_50
 10
206.9038869999999
 20
111.7310899999999
 30
0.0
 40
4.15
  0
CIRCLE
  8
ITEM_50
 10
59.903888
 20
-35.26890999999999
 30
0.0
 40
4.15
  0
CIRCLE
  8
ITEM_50
 10
59.903888
 20
111.7310899999999
 30
0.0
 40
4.15
  0
ARC
  8
ITEM_50
 10
209.4038879999999
 20
114.2310899999999
 30
0.0
 40
4.0
 50
63.434949
 51
90.0
  0
ARC
  8
ITEM_50
 10
209.4038879999999
 20
114.2310899999999
 30
0.0
 40
4.0
 50
0.000018
 51
63.434949
  0
LINE
  8
ITEM_50
 10
213.4038879999999
 20
-37.76890999999999
 30
0.0
 11
213.4038879999999
 21
114.2310899999999
 31
0.0
  0
ARC
  8
ITEM_50
 10
209.4038879999999
 20
-37.76890999999999
 30
0.0
 40
4.0
 50
270.0
 51
0.0
  0
LINE
  8
ITEM_50
 10
57.403888
 20
-41.76890999999999
 30
0.0
 11
209.4038879999999
 21
-41.76890999999999
 31
0.0
  0
ARC
  8
ITEM_50
 10
57.403888
 20
-37.76890999999999
 30
0.0
 40
4.0
 50
180.0
 51
270.0
  0
LINE
  8
ITEM_50
 10
53.403888
 20
114.2310899999999
 30
0.0
 11
53.403888
 21
-37.76890999999999
 31
0.0
  0
ARC
  8
ITEM_50
 10
57.403888
 20
114.2310899999999
 30
0.0
 40
4.0
 50
90.0
 51
116.5650509999999
  0
ARC
  8
ITEM_50
 10
57.403888
 20
114.2310899999999
 30
0.0
 40
4.0
 50
116.5650509999999
 51
179.999973
  0
LINE
  8
ITEM_50
 10
57.40388699999999
 20
118.2310899999999
 30
0.0
 11
209.4038879999999
 21
118.2310899999999
 31
0.0
  0
ARC
  8
ITEM_50
 10
210.9038879999999
 20
155.581119
 30
0.0
 40
2.5
 50
0.0
 51
90.0
  0
ARC
  8
ITEM_50
 10
55.903888
 20
155.581119
 30
0.0
 40
2.5
 50
90.0
 51
180.0
  0
LINE
  8
ITEM_50
 10
213.4038879999999
 20
155.581119
 30
0.0
 11
213.4038879999999
 21
154.081119
 31
0.0
  0
LINE
  8
ITEM_50
 10
53.403888
 20
154.081119
 30
0.0
 11
53.403888
 21
155.581119
 31
0.0
  0
LINE
  8
ITEM_GSTRG
 10
262.901814
 20
-17.76891
 30
0.0
 11
271.901814
 21
-17.76891
 31
0.0
  0
LINE
  8
ITEM_GSTRG
 10
271.901814
 20
-25.76891
 30
0.0
 11
262.901814
 21
-25.76891
 31
0.0
  0
LINE
  8
ITEM_GSTRG
 10
271.901814
 20
-14.76891
 30
0.0
 11
262.901814
 21
-14.76891
 31
0.0
  0
LINE
  8
ITEM_GSTRG
 10
262.901814
 20
-14.76891
 30
0.0
 11
262.901814
 21
-28.76890999999999
 31
0.0
  0
LINE
  8
ITEM_GSTRG
 10
262.901814
 20
-28.76890999999999
 30
0.0
 11
271.901814
 21
-28.76890999999999
 31
0.0
  0
LINE
  8
ITEM_50
 10
57.403888
 20
-41.76890999999999
 30
0.0
 11
209.4038879999999
 21
-41.76890999999999
 31
0.0
  0
LINE
  8
ITEM_GSTRG
 10
262.901814
 20
11.23109
 30
0.0
 11
271.901814
 21
11.23109
 31
0.0
  0
LINE
  8
ITEM_GSTRG
 10
262.901814
 20
25.23108999999999
 30
0.0
 11
262.901814
 21
11.23109
 31
0.0
  0
LINE
  8
ITEM_GSTRG
 10
271.901814
 20
25.23108999999999
 30
0.0
 11
262.901814
 21
25.23108999999999
 31
0.0
  0
LINE
  8
ITEM_GSTRG
 10
271.901814
 20
14.23109
 30
0.0
 11
262.901814
 21
14.23109
 31
0.0
  0
LINE
  8
ITEM_GSTRG
 10
262.901814
 20
22.23108999999999
 30
0.0
 11
271.901814
 21
22.23108999999999
 31
0.0
  0
ENDSEC
  0
EOF
